Other music forums > Musician's Corner

Guess The Song: Tabs

(1/4) > >>

TurnMeOnDeadman:
How it works:  I'll post a small excerpt of tablature from a rock song, and you guess which one it is.  You might have to play it to figure it out!

If you guess correctly, then you get to post tabs to guess from.

Here's mine:

B|------------------------6---6---6---6---6-----------
G|--------3-5-3-5/7----5h7-5h7-5h7-5h7-5h7/5p3--------
D|-5----5--------------------------------------5-5----
A|----------------------------------------------------

joan was quizzical:
A HARD DAY'S NIGHT!

yay! i win!

here's another:

E--------------------------------------------0--------------------0-------------------------
B-------------------0h2p0------------------0----------------------2p0--------------------
G---------------1-----------1---------------1-----------------1---------1-------------0----
D---------2h4------------------4p2--------2-----------2h4---------------4p2----4-------
A----2h4------------------------------------2-----2h4-------------------------------------
E--------------------------------------------0---------------------------------------------- .........

~ missy

lennonlemon:
omg i was gonig to answer!!!

i worked hard for it joan!......lol

lennonlemon:
clue pelase for those who find it difficult to read tabs and can't play f***in' guitar

joan was quizzical:
Alright here's a clue: it's a track #5.

~ missy

Navigation

[0] Message Index

[#] Next page

Go to full version