A treasury and a place to meet people of all ages with various interests from all over the World
Please login or register.

Login with username, password and session length

Author Topic: Guess The Song: Tabs  (Read 1830 times)

0 Members and 1 Guest are viewing this topic.

TurnMeOnDeadman

  • A Thousand Pages
  • ****
  • Offline Offline
  • Gender: Male
  • Posts: 2401
  • Creme Tangerine
Guess The Song: Tabs
« on: April 29, 2005, 04:18:43 AM »

How it works:  I'll post a small excerpt of tablature from a rock song, and you guess which one it is.  You might have to play it to figure it out!

If you guess correctly, then you get to post tabs to guess from.

Here's mine:

B|------------------------6---6---6---6---6-----------
G|--------3-5-3-5/7----5h7-5h7-5h7-5h7-5h7/5p3--------
D|-5----5--------------------------------------5-5----
A|----------------------------------------------------
Logged


mih ssim mih ssim ,won daed si luap

"LSD is a drug made famous by John Lennon and Paul Mccartney"
 &nb
GEMM is your best source for impossible-to-find !

joan was quizzical

  • Getting Better
  • ***
  • Offline Offline
  • Gender: Female
  • Posts: 305
Re: Guess The Song: Tabs
« Reply #1 on: April 29, 2005, 05:36:28 PM »

A HARD DAY'S NIGHT!

yay! i win!

here's another:

E--------------------------------------------0--------------------0-------------------------
B-------------------0h2p0------------------0----------------------2p0--------------------
G---------------1-----------1---------------1-----------------1---------1-------------0----
D---------2h4------------------4p2--------2-----------2h4---------------4p2----4-------
A----2h4------------------------------------2-----2h4-------------------------------------
E--------------------------------------------0---------------------------------------------- .........

~ missy
Logged

lennonlemon

  • A Thousand Pages
  • ****
  • Offline Offline
  • Gender: Male
  • Posts: 1635
  • I Believe in Beatles
Re: Guess The Song: Tabs
« Reply #2 on: April 29, 2005, 05:37:50 PM »

omg i was gonig to answer!!!

i worked hard for it joan!......lol
Logged
All You Need is Love  :K) :K) :K)

lennonlemon

  • A Thousand Pages
  • ****
  • Offline Offline
  • Gender: Male
  • Posts: 1635
  • I Believe in Beatles
Re: Guess The Song: Tabs
« Reply #3 on: April 29, 2005, 05:38:55 PM »

clue pelase for those who find it difficult to read tabs and can't play f***in' guitar
Logged
All You Need is Love  :K) :K) :K)

joan was quizzical

  • Getting Better
  • ***
  • Offline Offline
  • Gender: Female
  • Posts: 305
Re: Guess The Song: Tabs
« Reply #4 on: April 29, 2005, 05:40:41 PM »

Alright here's a clue: it's a track #5.

~ missy
Logged

lennonlemon

  • A Thousand Pages
  • ****
  • Offline Offline
  • Gender: Male
  • Posts: 1635
  • I Believe in Beatles
Re: Guess The Song: Tabs
« Reply #5 on: April 29, 2005, 05:55:30 PM »

i'm going to take a wild guess and say "heartbreaker" though i doubt it. cant even understand  the tabs.
Logged
All You Need is Love  :K) :K) :K)

joan was quizzical

  • Getting Better
  • ***
  • Offline Offline
  • Gender: Female
  • Posts: 305
Re: Guess The Song: Tabs
« Reply #6 on: April 29, 2005, 06:06:53 PM »

Oh, sorry, it's a Beatles song! Guess that would have helped....

~ missy
Logged

TurnMeOnDeadman

  • A Thousand Pages
  • ****
  • Offline Offline
  • Gender: Male
  • Posts: 2401
  • Creme Tangerine
Re: Guess The Song: Tabs
« Reply #7 on: April 29, 2005, 06:12:17 PM »

Octopuses Garden!!
Logged


mih ssim mih ssim ,won daed si luap

"LSD is a drug made famous by John Lennon and Paul Mccartney"
 &nb

joan was quizzical

  • Getting Better
  • ***
  • Offline Offline
  • Gender: Female
  • Posts: 305
Re: Guess The Song: Tabs
« Reply #8 on: April 29, 2005, 06:14:42 PM »

ding! ding! ding! ;D

~ missy
Logged

TurnMeOnDeadman

  • A Thousand Pages
  • ****
  • Offline Offline
  • Gender: Male
  • Posts: 2401
  • Creme Tangerine
Re: Guess The Song: Tabs
« Reply #9 on: April 29, 2005, 06:18:02 PM »

heres a new one, its a bass tab:

G|----------------------------9-7--------------------------
D|------------------5-------9-----9-------------------3s14-
A|--7-7-7-7-7-7-7-7---9-8-7----------7-7-7-7-7-7-7-7-------
E|---------------------------------------------------------
Logged


mih ssim mih ssim ,won daed si luap

"LSD is a drug made famous by John Lennon and Paul Mccartney"
 &nb

lennonlemon

  • A Thousand Pages
  • ****
  • Offline Offline
  • Gender: Male
  • Posts: 1635
  • I Believe in Beatles
Re: Guess The Song: Tabs
« Reply #10 on: April 29, 2005, 06:35:37 PM »

i want you!!!! (well, the song)

G|---3-5^--3-3-3--|----------------|-------------|-------------|
D|-5--------------|-5-3---3--------|-5--5--5--5--|-3--3--3--3--|
A|----------------|-----5---53-1--|-------------|-------------|
E|----------------|----------------|-------------|-------------|

pretty recognizable bass solo :)
Logged
All You Need is Love  :K) :K) :K)

TurnMeOnDeadman

  • A Thousand Pages
  • ****
  • Offline Offline
  • Gender: Male
  • Posts: 2401
  • Creme Tangerine
Re: Guess The Song: Tabs
« Reply #11 on: April 29, 2005, 06:45:36 PM »

My Generation!!!!!
Logged


mih ssim mih ssim ,won daed si luap

"LSD is a drug made famous by John Lennon and Paul Mccartney"
 &nb

sexy sadie

  • Getting Better
  • ***
  • Offline Offline
  • Gender: Female
  • Posts: 463
  • once there was a way to get back home...
Re: Guess The Song: Tabs
« Reply #12 on: April 29, 2005, 09:35:17 PM »

i can't play gee-tar, unforunately :(
Logged
Ashley*

one sweet dream, pick up the bags and get in the limousine. soon we'll be away from here. step on the gas and wipe that tear away. one sweet dream came true today...

[img]http://img122.exs.cx/img122/8264/jsj21oc.jpg[/img

lennonlemon

  • A Thousand Pages
  • ****
  • Offline Offline
  • Gender: Male
  • Posts: 1635
  • I Believe in Beatles
Re: Guess The Song: Tabs
« Reply #13 on: April 29, 2005, 11:04:48 PM »

niether can i, but it's fun guessing titles
Logged
All You Need is Love  :K) :K) :K)

  • Guest
Re: Guess The Song: Tabs
« Reply #14 on: April 29, 2005, 11:48:04 PM »

I usually play real sheet music, but i have a tab on mymind so here it is:

e:-------------------------------------------------------------------------|
B:--------------------------15b(17)rb(15)p12---------------15--------------|
G:---------14--14b(16)~~~~--------------------12--14b(16)~~~~~~rb(14)~~~~--|
D:-----12------------------------------------------------------------------|
A:/14----------------------------------------------------------------------|
E:-------------------------------------------------------------------------|
Logged

lennonlemon

  • A Thousand Pages
  • ****
  • Offline Offline
  • Gender: Male
  • Posts: 1635
  • I Believe in Beatles
Re: Guess The Song: Tabs
« Reply #15 on: April 30, 2005, 12:46:14 AM »

i agree, real sheet is much more simpler (for me anyways). i hate all these dashes.
Logged
All You Need is Love  :K) :K) :K)

  • Guest
Re: Guess The Song: Tabs
« Reply #16 on: April 30, 2005, 12:49:30 AM »

Quote from: lennonlemon
i agree, real sheet is much more simpler (for me anyways). i hate all these dashes.

yeah true, but many beginner guitar players only read tabs, which IMO is a waste of time... real sheet music is much easier...

Logged

joan was quizzical

  • Getting Better
  • ***
  • Offline Offline
  • Gender: Female
  • Posts: 305
Re: Guess The Song: Tabs
« Reply #17 on: April 30, 2005, 02:13:00 AM »

Tab isn't only for beginners. I read both sheet music and tab and find tab a lot easier. Why would you consider it a waste of time?

~ missy
Logged

  • Guest
Re: Guess The Song: Tabs
« Reply #18 on: April 30, 2005, 11:10:58 PM »

Quote from: joan_was_quizzical
Tab isn't only for beginners. I read both sheet music and tab and find tab a lot easier. Why would you consider it a waste of time?

~ missy

I was pretty musch talking in my point of vue... tabs are good to start with, but then when you learn more you go up another level, not only staying at one place, especially if you want to do something in music, like university, pro or whatever...not wasting your time on that when you can learn sheet music afterwards, but if you play just for fun tabs are well enough...

anyways, anyone found out what my tab is?

Logged
 

Page created in 0.394 seconds with 26 queries.